Aula 8 – Técnicas de dedilhados

Procure usar os exercícios de coordenação motora como aquecimento antes das aulas, você verá que isso faz bastante diferença na hora de iniciar os outros exercícios.

Todos os ritmos que vimos podem ser reproduzidos com a técnica do dedilhado. A nomenclatura dos dedos será:

polegar      P
indicador    I
médio        M
anelar       A

O polegar controla as cordas 4, 5 e 6, salvo algumas exceções. Estas cordas são chamadas de bordões. O bordão, No dedilhado, serve para fazer a marcação do ritmo. Os dedos I, M, A, tocam as cordas puxando pra cima, ao invés do polegar que toca p/baixo. Podem tocar juntos puxando as três cordas mais finas, chamadas primas, ou um de cada vez, depende do ritmo.

DEDILHADO DE VALSA

O dedilhado da valsinha é o mais simples. Toque com o polegar no tempo 1, puxe as cordas 1,2 e 3 com os dedos i, m, a, nos tempos 2 e 3. Veja o esquema:

Segue o exercicio na TAB:

|-----0--0----0-0---0-0---0-0----0-0--|
|-----0--0----0-0---0-0---0-0----0-0--|
|-----0--0----0-0---0-0---0-0----0-0--|
|-----------------0-------------------|
|-----------0-----------0-------------|
|--0---------------------------0------|


EXERCICIO COM DEDILHADO 3X4 E ACORDES

Exercite o dedilhado de três tempos com a seguinte sequência de acordes.


TOCANDO A CANÇÃO A CASA COM O DEDILHADO 3X4

A Casa (Vinicius de Morais)

           C              
Era uma casa muito engraçada
          G              C
Nao tinha teto, nao tinha nada
                          
Ninguém podia entrar nela, nao
          G             C
Porque na casa nao tinha chao
        F                C
Ninguém podia dormir na rede
          G               C
Porque na casa nao tinha parede
            F           C
Ninguém podia fazer pipi
         G               C
Porque penico nao tinha ali
        C     
Mas era feita com muito esmero
           G             C
Na rua dos Bobos, número zero

Quando estiver tocando com segurança a canção, experimente usar acordes de pestana. Na TAB abaixo, confira as posições dos acordes C, G7 e F com pestana. Aproveitei para substituir o G por G7, para melhorar a harmonia da música.

    C     G7    F  
----3-----3-----1---------
----5-----3-----1---------
----5-----4-----2---------
----5-----3-----3---------
----3-----5-----3---------
----x-----3-----1---------


EXERCÍCIO 6 (TRECHO DE SONATA DE BACH)

A tab abaixo representa um pequeno trecho de sonata de J.S. Bach, que exigirá um pouco mais de você. Pratique com calma. Vá vencendo as partes aos poucos. Depois de memoriza-la bem, exercite todos os dias para ficar natural. Lembre-se: quando conseguir tocar sem olhar as notas na tab, chegou a hora de repetir mais 10 vezes!!

-------------------0--------0--2--3-----------------
-3--------0--1--3-----1--3-----------1--3--1--0---0-
----0--2----------------------------------------2---
----------------------------------------------------
----------------2--3--------------2--3--------------
-3------------------------------------------------3-

------------------------------- 1--0----------0---------------- -----2--0--2-----2--0-----0---- -----------------------4------- -----------3------------------- --------------------------3----

Até mais!

X bannerVirtualMusic

11 comentarios

maria celia lustosa

Professor,tenho acompanhado bem suas aulas,mas esse trecho da sonata,não consegui entender o dedilhado…Como se faz isso?
Um abraço e obrigada pelas aulas.

    Zé do Bêlo

    Oi Maria Celia, este não é um dedilhado repetitivo, como os outros padrões apresentados. É necessário ir lendo a tablatura e tocando no violão. Observe que têm notas alinhadas na vertical (uma exatamente embaixo da outra), estas notas deverão ser tocadas ao mesmo tempo, puxando-se uma corda com o polegar e outra com o indicador ou dedo médio, a depender do trecho, conforme faço no video. Abraço e boa sorte!

Comente

  • *preenchimento obrigatorio