Aula 10 – Finalizando o curso básico

Se você chegou até aqui cumprindo todos os exercicios propostos, já deve estar com muita habilidade ao violão. Nesta última aula, vamos ver um outro padrão importante de dedilhado.

Pratique os exercicios abaixo para aquecer. São trechos de um método do músico Robert Fripp. Sempre uso este tipo de exercicio antes de começar a tocar. Os dedos ficam ageis e a digitação fica precisa. Experimente faze-lo todos os dias. Acima da TAB está indicação dos dedos da mão esquerda. Repita o bloco de digitação avançando uma casa e assim por diante ate a quinta casa. Mantenha o tempo uniforme.

EXERCICIO 7 (Robert Fripp)

  p  i    m   i   m    a      m     a    m
-----------------------------------------3--
------------------------2-----------4-------
----------1--------3----------3-------------
------2-------2-----------------------------
--1-----------------------------------------
--------------------------------------------

EXERCICIO 8 (ROBERT FRIPP)

 p    a   p   i   a   p   m   a  p  i  a
------------------------------------------
------------------------------------------
------4-----------3-----------2--------1--
--------------------------3---------------
--------------4---------------------2-----
--1-------3-----------2----------1--------


ACORDE SOL COM SÉTIMA (G7) SEM PESTANA

---1----------------------1--- (dedo1)
---0------------------0-------
---0--------------0-----------
---0----------0---------------
---2------2------------------- (dedo2)
---3---3---------------------- (dedo3)


DEDILHADO DE MARCHA (VERSÃO 2)

Seguindo a mesma contagem de sempre nos compassos binários, temos aqui o dedilhado que mais aparece em música popular. Funciona com centenas de canções, de diversos estilos, como xote, balada, rock lento, entre outros. Veja o desenho:

O exercicio acima esta transcrito nesta TAB:

|-----0-------0-------0-------0--------0----|
|-----0-------0-------0-------0--------0----|
|---0---0---0---0---0---0---0---0----0---0--|
|-----------------0-------------------------|
|---------0---------------0-----------------|
|-0--------------------------------0--------|


APLICANDO EM UMA CANÇÃO

Execute a canção utilizando o dedilhado que acabamos de aprender.

Felicidade (Lupicínio Rodrigues)

   C                   Dm
Felicidade foi-se embora
                   G7          C
E a saudade do meu peito inda mora
                     Am        Dm
E é por isso que eu gosto lá de fora
                         G7          C
Porque eu sei que a falsidade não vigora
                               Dm
A minha casa fica lá detrás do mundo
                    G7
Onde eu vou em um segundo
                    C
Quando começo a cantar 
                                 Dm
O pensamento parece uma coisa à toa
                       G7
Mas como é que a gente voa
                    C
Quando começa a pensar


EXERCICIO 9 (TRECHO DE BACH)

Vamos exercitar os dedos com este trecho da conhecida obra ‘Jesus Alegria dos Homens’, de J.S.Bach. Lembre-se que quando as notas estão escritas alinhadas verticalmente na TAB é porque devem ser tocadas juntas.

|-----------------------0-----|-----3--2--3-----------------|
|-----------0--3--1--1-----3--|--3-----------3--0--------0--|
|-----0--2--------------------|--------------------0--2-----|
|-----------0--------2--------|-----------2-----------------|
|-----------------------------|--2--------------------------|
|--3--------------------------|--------------------0--------|

|--------0--------------------|-----------------------------|
|--1--3-----3--1--0-----------|--------------------1--0-----|
|-----------------------0---2-|---------------2----------2--|
|--------------------4--------|-----0----4---------0--------|
|--3--------2--------5--------|-----------------------------|
|-----------------------------|-----2-----------------------|
                                                                                           
|-----------------------0-----|-----3--2--3-----------------|
|--0--------0--3--1--1-----3--|--3-----------3--0--------0--|
|-----0--2--------------------|--------------------0--2-----|
|-----------2-----------------|-----------2--------0--------|
|--------------------3--------|--2--------------------------|
|--3--------------------------|-----------------------------|
                                                                               
|-----------------------------|-----------------------------| 
|-----3--1--0-----------------|-----------------------------| 
|--------------2--0-----0-----|--0--------------------------| 
|--2-----------------0-----4--|-----------------------------| 
|--3--------4-----------------|-----------------------------| 
|-----------------------------|--3--------------------------|

Boa sorte!

16 comentarios

Rogério

Parabéns, muito boa suas dicas. Realmente ajuda mesmo a quem está precisando de uma dicas para adentrar nessa maravilhoso mundo do violão.
Que Deus te proteja.

Hermes Ferreira de Sousa

Achei bastante interessante o curso basico. Gostaria de saber se existe outro curso intermediario abordando o estudo de ritimo, os modelos de escalas com digitação e aplicação com exemplos e tambem os dedilhados (arpejos) com exemplos. Assim um estudo que aproxime o maximo de gravação em estudio. Explico: uma musica do Raça Megra ou SPC outros cantores.

    ZeDoBelo

    Oi Hermes, minha proposta é ensinar o básico a quem nada sabe. Se você chegou até aqui e conseguiu realizar todos os exercícios, sugiro que passe a estudar pelo site Cifraclub, onde encontrará material de escalas e arpejos, e muitas músicas cifradas, que vão ajuda-lo com seu repertório. Agradeço os elogios, boa sorte, amigo!

gabrielle

professor, queria saber se em uns 2 3 meses da pra terminar esse curso basico, sabendo de tudo que ensina ai ? OBS: vo começar agora

Desde já obrigado
bjs

Juliano

Olá professor, primeiro agradecer pelo curso e estou na ultima parte agora, no ex 9 Trecho de Bach, a terceira parte aonde tocam juntos as cordas A e D na casa 4 e 5 está correto? pq no video parece que são tocadas as cordas B e G ou eu estou errado? gratidão

    ZeDoBelo

    Oi Juliano, a resolução do vídeo não é das melhores, de fato, mas estou tocando sim cordas A e D nas casas 4 e 5, conforme a TAB. Você poderá ainda confirmar pelo som, a música vai ficar estranha se você tocar nas cordas B e G. Obrigado por curtir o site, um grande abraço e boa sorte, amigo!

GIOVANE DERENEVICK

Ola Zé, tudo bem

Comecei seu curso à dois anos atrás, tinha 54 anos, nunca tinha pego um violão para tocar, hoje me considero um tocador de violão mas ainda tenho dificuldade com acordes maiores da 5ª corda com pestana mas ainda continuo treinando. A minha duvida é quanto ao uso da palheta, a maioria dos tocadores a usa e eu não consigo
prefiro só os dedos, tem alguma dica.
Obrigado pelo curso ele me fez muito bem.

    admin

    Oi Giovane, como vai, obrigado pelos elogios!! Sobre a palheta, não é comum usar em violão de nylon, somente a usamos em violão de aço. A técnica da palheta se pode aprender facilmente em sites que ensinam a tocar guitarra elétrica, caso seu violão seja aço eu aconselho a palheta, mas do contrário, sugiro que continue estudando dedilhados e ritmos somente com os dedos. Boa sorte!

Marcos

Antes de mais nada queria dar os parabéns pelo site e iniciativa!!!
Aprendi violão por aqui faz um tempo e estou gostando muito, consegui aprender varias musicas e solos… consigo fazer a passagem de acordes rapidamente mas ainda tenho uns probleminhas de técnica, tipo acordes de 4 dedos (F, B e etc) ainda entro um pouco lento, com 1 dedo por vez, será que existe algum exercício para aprimorar isso ou é só na pratica mesmo?
Obrigado!

    admin

    Marcos, basta seguir diariamente praticando, exercícios e músicas, para superar as dificuldades. Boa sorte

Comente

  • *preenchimento obrigatorio