Método de Tablatura

Marinheiro Popeye

Observe que os “x” significam que você toca a corda abafada, sem produzir o som da corda, apenas um “toc” percussivo. As cifras acima da Tab podem ser tocadas por um segundo violão.

       G                          C              G          C
----------------------------------------------------------------
----------------------------------------------------------------
----------------------------------------0-----------------------
----0--0--0--------0--x--x--0--2-----2-----2--0--x--x--0--2---2-
-2-----------3--2-----------------3--------------------------3--
----------------------------------------------------------------

             G               D                G
---------------------------------------------------|
---------------------------------------------------|
---0-------------------------------------------0---|
------4--2--0--2--0-----------0--0--0--2--4--------|
---------------------2-----2-----------------------|
------------------------3--------------------------|


Os Flintstones

------------------0--1--3-----8--5--3-----3--1--0--0--1--3--------0----
---------0--1--3-----------1--------------------------------1--3-------
---0--2--------------------------------5-------------------------------
-----------------------------------------------------------------------
-----------------------------------------------------------------------
-----------------------------------------------------------------------
    
------------------0--1--3-----8--5--3-----3--1--0--0--1--3-------------
---------0--1--3-----------1--------------------------------1--3--1----
---0--2--------------------------------5-------------------------------
-----------------------------------------------------------------------
-----------------------------------------------------------------------
-----------------------------------------------------------------------
    
---7--0--8--7--7--5--5--7--5--5-----7--5--5--3--3--5--3----------------
---------------------------------3-------------------------------------
-----------------------------------------------------------------------
-----------------------------------------------------------------------
-----------------------------------------------------------------------
-----------------------------------------------------------------------
    
------------------0--1--3-----8--5--3-----3--1--0--0--1--3-------------
---------0--1--3-----------1--------------------------------1--3--1----
---0--2--------------------------------5-------------------------------
-----------------------------------------------------------------------
-----------------------------------------------------------------------
-----------------------------------------------------------------------

9 comentarios

vilma Maria de melo

olá!!! Gostei muito!!!!!!!!!! Vc yrm tablatura de musicas infantis para criança de 6 anos?

    ZeDoBelo

    Oi Vilma, esses exercícios são para qualquer idade, são básicos. Tem um livro que chama “O Equilibrista das 6 Cordas”, é excelente para ensinar violão às crianças.

    admin

    Antonio, o site Cifraclub oferece video aulas ensinando a tocar todas as músicas. Meu compromisso aqui é somente ensinar o básico a quem nada sabe. Obrigado e boa sorte!

marcos

toco guitarra a 2 anos e quando comecei, eu li na web que tocar melodia acelera o aprendizado
mas até hoje tenho dificuldade em tocar solo. Consigo pegar a melodia da musica com facilidade mais meus solos são muito ruim, porque?

    admin

    Marcos, os solos você vai produzir com as escalas, de acordo com o campo harmônico e o tom da música. Existem escalas mais fáceis de utilizar, como as pentatônicas e as penta-blues, que são boas para o iniciante. Além desse conhecimento é preciso também dominar as figuras rítmicas, para saber dividir o tempo da música e colocar as notas da escala, do seu fraseado na guitarra, de acordo com o ritmo da música. Há que se dedicar e estudar as escalas e o campo harmônico com disciplina. Assim, aos poucos vai dominando a técnica e vai ficando mais fácil se expressar como instrumento. Boa sorte!

Deixe uma resposta para ricardo Cancelar resposta

  • *preenchimento obrigatorio