Aula 7 – Técnica da pestana

Vamos começar com exercícios que ajudam na abertura dos dedos. Os dois exercícios abaixo reforçam a mão esquerda. Vamos praticá-los. Leia a tablatura e memorize a digitação das notas. Estes exercícios devem ser praticados todos os dias.

EXERCÍCIO 4

-1--4--------------------------------------------------------------2--3-
-------2--3--------------------------------------------------1--4-------
-------------1--4--------------------------------------2--3-------------
------------------2--3--------------------------1--4--------------------
------------------------1--4--------------2--3--------------------------
------------------------------2--3--1--4--------------------------------

EXERCÍCIO 5

-1--3--------------------------------------------------------------2--4-
-------2--4--------------------------------------------------1--3-------
-------------1--3--------------------------------------2--4-------------
-------------------2--4--------------------------1--3-------------------
-------------------------1--3--------------2--4-------------------------
-------------------------------2--4--1--3-------------------------------


PRIMEIROS EXERCÍCIOS DA PESTANA

É realmente difícil tirar um som satisfatório de pestana no começo. É necessário disciplina e persistência. Tenho certeza que você, que já está na aula 7, tem estes atributos e não desistirá agora.

O que pode ocorrer no inicio é que você não consiga pressionar com uniformidade todas as cordas, então uma que outra não soará bem. É preciso pratica constante. Com treinamento diário voce certamente conseguirá, eu garanto.

Pois com o auxilio da pestana poderemos construir dezenas de acordes para facilitar a sua vida usando a mesma logica para todos eles. De nada adiantará fugir da pestana. Vamos enfrenta-la com confiança. Depois de dominada, a tecnica da pestana lhe será muito util.

Ao pressionarmos com o indicador todas as cordas do violão em uma determinada casa, estaremos fazendo uma pestana. Vamos começar com um exercicio simples, tirando um som mais limpo possivel.

Vamos começar com uma pestaninha pequena, de tres cordas. Pressione com o indicador de leve, mas pegue por igual as cordas 1, 2 e 3, na casa1, seguindo pelas casas seguintes até a quinta.

Em seguida uma pestana nas primeiras quatro cordas. Siga o mesmo procedimento feito com tres cordas e descanse sempre que doer a mão esquerda.

Vamos pegar agora as cinco primeiras cordas e repetir os procedimentos acima. Faça devagar, o importante é tirar um som limpo de todas as cordas.

Finalmente, siga a TAB abaixo para fazer um exercicio com a pestana completa: seis cordas.

--0----1-----2-----3-----4-----5---
--0----1-----2-----3-----4-----5---
--0----1-----2-----3-----4-----5---
--0----1-----2-----3-----4-----5---
--0----1-----2-----3-----4-----5---
--0----1-----2-----3-----4-----5---


ACORDE FÁ MAIOR (F)

--1---------------------------1---- (pestana dedo1)
--1-----------------------1-------- (pestana dedo1)
--2-------------------2------------ (dedo2)
--3---------------3---------------- (dedo4)
--3-----------3-------------------- (dedo3)
--1-------1------------------------ (pestana dedo1)


FORMAÇÃO DE ACORDES COM PESTANA

O nome do acorde/cifra que você fizer com a pestana é determinado pela nota mais grave, ou seja o bordão. A pestana é um formato de acorde padrão. Você poderá obter todos os acordes com a técnica da pestana. Antes de prosseguir, memorize a tabelinha abaixo. São os nomes das notas nas casas da 5ª e 6ª corda, muito utilizadas para montagem dos acordes de pestana.

Nomes das notas

O símbolo ‘#’ significa ‘sustenido’. Vamos combinar aqui que não existe E# nem B#. Após E vem F, e após B vem C, conforme você observa na figura do piano abaixo. As demais notas têm seus respectivos sustenidos, que são as teclas pretas do piano. O símbolo ‘#’ indica que há uma nota intermediária antes de chegar a próxima. Por exemplo, entre o G e o A existe mais uma notinha que é o G#. A sequencia completa das notas será: A, A#, B, C, C#, D, D#, E, F, F#, G, G#. Após o G# você terá novamente o A, porém uma oitava acima. E assim por diante.

Observe que entre as notas brancas existem notas pretas, que são os sustenidos. Porém, entre o MI / FÁ e SI / DÓ não há nota intermediária.

Vamos memorizar os nomes das notas no braço do violão.

CORDA 6:

CASA | 0 | 1 | 2 | 3 | 4 | 5 |
NOTA | E | F | F#| G | G#| A |

CORDA 5:

CASA | 0 | 1 | 2 | 3 | 4 | 5 |
NOTA | A | A#| B | C | C#| D |

Ao deslocar a pestana pelo braço em direção ao centro do violão, da casa 0 até a casa 5, sem mudar o desenho da digitaçao, você obterá os acordes em sequência, ou seja E, F, F#, G, G# e A, todos maiores. Quem dá nome ao acorde é a casa da sexta corda.

---------0----1----2----3----4----5--------------
---------0----1----2----3----4----5--------------
---------1----2----3----4----5----6--------------
---------2----3----4----5----6----7--------------
---------2----3----4----5----6----7--------------
---------0----1----2----3----4----5--------------

Da mesma forma, os acordes A, A#, B, C, C# e D, estarão na sequencia da casa 0 até a casa 5 da quinta corda, que dá nome a estes acordes maiores executados com a pestana estendida do acorde A, o primeiro abaixo.

---0----1----2----3----4----5--------------
---2----3----4----5----6----7--------------
---2----3----4----5----6----7--------------
---2----3----4----5----6----7--------------
---0----1----2----3----4----5--------------
---x----x----x----x----x----x---------------

Da mesma forma, os acordes menores na sexta corda, estendendo o padrão do acorde Em (Mi menor). As pestanas abaixo formarão os acordes Em, Fm, F#m, Gm, G#m e Am.

-----0----1----2----3----4----5-----
-----0----1----2----3----4----5-----
-----0----1----2----3----4----5-----
-----2----3----4----5----6----7-----
-----2----3----4----5----6----7-----
-----0----1----2----3----4----5-----

E, ainda, estendendo o padrão de montagem do acorde Am (LÁ menor), obteremos os seguintes acordes em sequência: Am, A#m, Bm, Cm, C#m e Dm.

----0----1----2----3----4----5-----
----1----2----3----4----5----6-----
----2----3----4----5----6----7-----
----2----3----4----5----6----7-----
----0----1----2----3----4----5-----
----x----x----x----x----x-----x-----


ACORDES DE SÉTIMA COM PESTANA

Da mesma forma, montamos acordes de sétima com pestana. Um acorde de sétima é um acorde maior acrescido da dissonância de sétima. Montaremos primeiro estes acordes na corda 6, estendendo o modelo do E7, e obtendo os acordes F7, F#7, G7, G#7 e A7.

------0----1----2----3----4----5-------
------0----1----2----3----4----5-------
------1----2----3----4----5----6-------
------0----1----2----3----4----5-------
------2----3----4----5----6----7-------
------0----1----2----3----4----5-------

Ou estendendo pestana sobre o modelo do acorde A7, e obtendo os acordes de sétima com pestana na quinta corda: A#7, B7, C7, C#7 e D7.

-----0----1----2----3----4----5---
-----2----3----4----5----6----7---
-----0----1----2----3----4----5---
-----2----3----4----5----6----7---
-----0----1----2----3----4----5---
-----x----x----x----x----x----x----

Pratique bastante as pestanas e assim poderá obter todos os acordes que precisar para tocar as canções cifradas que encontra nos sites. Com o tempo o som sai cada vez mais limpo. Até a próxima.

22 comentarios

Ricardo San

Zé, neste exercício com pestana você nāo deu nem uma música treino . Em seu DVD , que irei adquirir em breve, aparecerá música com pestana?

    ZeDoBelo

    Amigo, o treino é você refazer os mesmos exercícios anteriores, mas usando a técnica da pestana para montagem dos acordes. Sendo assim, qualquer música pode ser tocada com pestanas, sendo que alguns acordes é quase obrigatório uso da pestana como F, Fm, Gm, Cm, B, Bm.

Reginaldo

Oi Zé tudo certo. Parabéns pelo DVD ficou muito bom. Eu encontrei em uma loja de instrumentos musicais um método chamado “minhas primeiras notas ao violão” de Othon G da Rocha Filho. Gostaria de saber o que acha desse método. Obrigado.

    ZeDoBelo

    Oi Reginaldo, não conheço o método dele não, quanto ao volume 2, só vou conseguir finalizar no primeiro semestre do ano que vem, produção independente é isso aí, grande abraço, amigo!

    admin

    João Paulo, é normal no início sentir dor quando faz pestanas, precisa descansar a mão e retornar mais tarde. A dor vai sumindo aos poucos. Boa sorte!

Felipe L. Dellargine

Zé, treinar colocando nas casas apenas os 3 dedos que não formam a pestana , de forma que eles tirem um som limpo, e só depois treinar colocando o indicador, seria uma boa técnica?

carlos

ZÉ , OUTRO DETALHE QUE NÃO COMENTEI É QUE MINHAS CORDAS SÃO DE AÇO E NA GUITARRA E NAS CORDAS DE NAYLON EU JÁ TOCO O FÁ MAIOR PERFEITO , VALEU OBRIGADO PELA SUA FORÇA .

    admin

    Oi Carlos, de fato, as cordas de aço são mais difíceis de tirar o som limpo, mas você chega lá. Boa sorte, amigo!

carlos

OI ZÉ, MINHA PESTANA JÁ ESTA SAINDO EM VÁRIAS NOTAS SÓ O FÁ MAIOR QUE AINDA ESTA ABAFADO MAS ESTOU INSISTINDO .
COM AS SUAS AULAS JÁ PUDE APRENDER E TOCAR VÁRIAS MÚSICAS , QUE DEUS CONTINUE TE ABENÇOANDO MUITO , VALEU.

    admin

    Emerson, é questão de prática e persistência, desde que esteja fazendo conforme mostro no vídeo. Por outro lado, a qualidade do instrumento faz toda a diferença. Boa sorte!

Deixe uma resposta para VINICIUS Cancelar resposta

  • *preenchimento obrigatorio